  0
SECTION
  2
HEADER
  9
$ACADVER
  1
AC1009
  9
$INSBASE
 10
-1.466168169444978
 20
-1.466168169444978
 30
0.0
  9
$EXTMIN
 10
-1.586901743991429
 20
-1.586901743991429
 30
0.0
  9
$EXTMAX
 10
91.0
 20
81.58690174399143
 30
0.0
  9
$LIMMIN
 10
0.0
 20
0.0
  9
$LIMMAX
 10
410.0
 20
287.0
  9
$ORTHOMODE
 70
     0
  9
$REGENMODE
 70
     0
  9
$FILLMODE
 70
     1
  9
$QTEXTMODE
 70
     0
  9
$MIRRTEXT
 70
     1
  9
$DRAGMODE
 70
     2
  9
$LTSCALE
 40
25.0
  9
$OSMODE
 70
     0
  9
$ATTMODE
 70
     2
  9
$TEXTSIZE
 40
3.5
  9
$TRACEWID
 40
1.0
  9
$TEXTSTYLE
  7
STANDARD
  9
$CLAYER
  8
0
  9
$CELTYPE
  6
BYLAYER
  9
$CECOLOR
 62
   256
  9
$DIMSCALE
 40
1.0
  9
$DIMASZ
 40
3.5
  9
$DIMEXO
 40
0.1
  9
$DIMDLI
 40
7.0
  9
$DIMRND
 40
0.0
  9
$DIMDLE
 40
0.0
  9
$DIMEXE
 40
1.8
  9
$DIMTP
 40
0.0
  9
$DIMTM
 40
0.0
  9
$DIMTXT
 40
3.5
  9
$DIMCEN
 40
1.5
  9
$DIMTSZ
 40
0.0
  9
$DIMTOL
 70
     0
  9
$DIMLIM
 70
     0
  9
$DIMTIH
 70
     0
  9
$DIMTOH
 70
     0
  9
$DIMSE1
 70
     0
  9
$DIMSE2
 70
     0
  9
$DIMTAD
 70
     0
  9
$DIMZIN
 70
     0
  9
$DIMBLK
  1

  9
$DIMASO
 70
     1
  9
$DIMSHO
 70
     0
  9
$DIMPOST
  1

  9
$DIMAPOST
  1

  9
$DIMALT
 70
     0
  9
$DIMALTD
 70
     2
  9
$DIMALTF
 40
25.39999999999999
  9
$DIMLFAC
 40
1.0
  9
$DIMTOFL
 70
     0
  9
$DIMTVP
 40
0.0
  9
$DIMTIX
 70
     0
  9
$DIMSOXD
 70
     0
  9
$DIMSAH
 70
     0
  9
$DIMBLK1
  1

  9
$DIMBLK2
  1

  9
$DIMSTYLE
  2
*UNNAMED
  9
$DIMCLRD
 70
     0
  9
$DIMCLRE
 70
     0
  9
$DIMCLRT
 70
     0
  9
$DIMTFAC
 40
1.0
  9
$DIMGAP
 40
0.09
  9
$LUNITS
 70
     2
  9
$LUPREC
 70
     2
  9
$SKETCHINC
 40
1.0
  9
$FILLETRAD
 40
0.0
  9
$AUNITS
 70
     0
  9
$AUPREC
 70
     0
  9
$MENU
  1

  9
$ELEVATION
 40
0.0
  9
$PELEVATION
 40
0.0
  9
$THICKNESS
 40
0.0
  9
$LIMCHECK
 70
     0
  9
$BLIPMODE
 70
     1
  9
$CHAMFERA
 40
0.0
  9
$CHAMFERB
 40
0.0
  9
$SKPOLY
 70
     0
  9
$TDCREATE
 40
2448736.473388426
  9
$TDUPDATE
 40
2449393.434847685
  9
$TDINDWG
 40
0.0005687500
  9
$TDUSRTIMER
 40
0.0005687500
  9
$USRTIMER
 70
     1
  9
$ANGBASE
 50
0.0
  9
$ANGDIR
 70
     0
  9
$PDMODE
 70
     3
  9
$PDSIZE
 40
0.0
  9
$PLINEWID
 40
0.0
  9
$COORDS
 70
     2
  9
$SPLFRAME
 70
     0
  9
$SPLINETYPE
 70
     6
  9
$SPLINESEGS
 70
     8
  9
$ATTDIA
 70
     0
  9
$ATTREQ
 70
     1
  9
$HANDLING
 70
     0
  9
$HANDSEED
  5
0
  9
$SURFTAB1
 70
     6
  9
$SURFTAB2
 70
     6
  9
$SURFTYPE
 70
     6
  9
$SURFU
 70
     6
  9
$SURFV
 70
     6
  9
$UCSNAME
  2

  9
$UCSORG
 10
0.0
 20
0.0
 30
0.0
  9
$UCSXDIR
 10
1.0
 20
0.0
 30
0.0
  9
$UCSYDIR
 10
0.0
 20
1.0
 30
0.0
  9
$PUCSNAME
  2

  9
$PUCSORG
 10
0.0
 20
0.0
 30
0.0
  9
$PUCSXDIR
 10
1.0
 20
0.0
 30
0.0
  9
$PUCSYDIR
 10
0.0
 20
1.0
 30
0.0
  9
$USERI1
 70
     0
  9
$USERI2
 70
     0
  9
$USERI3
 70
     0
  9
$USERI4
 70
     0
  9
$USERI5
 70
     0
  9
$USERR1
 40
1.0
  9
$USERR2
 40
0.0
  9
$USERR3
 40
0.0
  9
$USERR4
 40
0.0
  9
$USERR5
 40
0.0
  9
$WORLDVIEW
 70
     1
  9
$SHADEDGE
 70
     3
  9
$SHADEDIF
 70
    70
  9
$TILEMODE
 70
     1
  9
$MAXACTVP
 70
    16
  9
$PINSBASE
 10
0.0
 20
0.0
 30
0.0
  9
$PLIMCHECK
 70
     0
  9
$PEXTMIN
 10
1.000000000000000E+20
 20
1.000000000000000E+20
 30
1.000000000000000E+20
  9
$PEXTMAX
 10
-1.000000000000000E+20
 20
-1.000000000000000E+20
 30
-1.000000000000000E+20
  9
$PLIMMIN
 10
0.0
 20
0.0
  9
$PLIMMAX
 10
12.0
 20
9.0
  9
$UNITMODE
 70
     0
  9
$VISRETAIN
 70
     0
  9
$PLINEGEN
 70
     0
  9
$PSLTSCALE
 70
     0
  9
$TREEDEPTH
 70
  3020
  9
$DWGCODEPAGE
  3
undefined
  0
ENDSEC
  0
SECTION
  2
TABLES
  0
TABLE
  2
VPORT
 70
     2
  0
VPORT
  2
*ACTIVE
 70
     0
 10
0.0
 20
0.0
 11
1.0
 21
1.0
 12
55.78711944764412
 22
43.41458695412062
 13
0.0
 23
0.0
 14
1.0
 24
1.0
 15
10.0
 25
10.0
 16
0.0
 26
0.0
 36
1.0
 17
0.0
 27
0.0
 37
0.0
 40
89.76151024713121
 41
1.275675675675675
 42
50.0
 43
0.0
 44
0.0
 50
0.0
 51
0.0
 71
     0
 72
 20000
 73
     1
 74
     1
 75
     0
 76
     0
 77
     0
 78
     0
  0
ENDTAB
  0
TABLE
  2
LTYPE
 70
     1
  0
LTYPE
  2
CONTINUOUS
 70
    64
  3
Ausgezogene Linie
 72
    65
 73
     0
 40
0.0
  0
ENDTAB
  0
TABLE
  2
LAYER
 70
     3
  0
LAYER
  2
0
 70
     0
 62
     7
  6
CONTINUOUS
  0
LAYER
  2
ITEM_50
 70
    64
 62
     7
  6
CONTINUOUS
  0
LAYER
  2
ITEM_HILFE
 70
    64
 62
     3
  6
CONTINUOUS
  0
ENDTAB
  0
TABLE
  2
STYLE
 70
     1
  0
STYLE
  2
STANDARD
 70
     0
 40
0.0
 41
1.0
 50
0.0
 71
     0
 42
3.5
  3
txt
  4

  0
ENDTAB
  0
TABLE
  2
VIEW
 70
     0
  0
ENDTAB
  0
TABLE
  2
UCS
 70
     0
  0
ENDTAB
  0
TABLE
  2
APPID
 70
     1
  0
APPID
  2
ACAD
 70
    64
  0
ENDTAB
  0
TABLE
  2
DIMSTYLE
 70
     0
  0
ENDTAB
  0
ENDSEC
  0
SECTION
  2
BLOCKS
  0
ENDSEC
  0
SECTION
  2
ENTITIES
  0
LINE
  8
ITEM_50
 10
90.0
 20
0.0
 30
0.0
 11
91.0
 21
0.0
 31
0.0
  0
LINE
  8
ITEM_50
 10
91.0
 20
80.0
 30
0.0
 11
90.0
 21
80.0
 31
0.0
  0
LINE
  8
ITEM_50
 10
90.0
 20
80.0
 30
0.0
 11
90.0
 21
0.0
 31
0.0
  0
LINE
  8
ITEM_50
 10
90.0
 20
16.0
 30
0.0
 11
91.0
 21
16.0
 31
0.0
  0
LINE
  8
ITEM_50
 10
91.0
 20
24.0
 30
0.0
 11
90.0
 21
24.0
 31
0.0
  0
LINE
  8
ITEM_50
 10
90.0
 20
64.0
 30
0.0
 11
91.0
 21
64.0
 31
0.0
  0
LINE
  8
ITEM_50
 10
91.0
 20
56.0
 30
0.0
 11
90.0
 21
56.0
 31
0.0
  0
POLYLINE
  8
ITEM_50
 66
     1
 10
0.0
 20
0.0
 30
0.0
 70
     1
  0
VERTEX
  8
ITEM_50
 10
76.0
 20
1.8
 30
0.0
 42
0.414214
  0
VERTEX
  8
ITEM_50
 10
78.2
 20
4.0
 30
0.0
  0
VERTEX
  8
ITEM_50
 10
78.2
 20
7.7
 30
0.0
 42
0.414214
  0
VERTEX
  8
ITEM_50
 10
77.7
 20
8.199999999999999
 30
0.0
  0
VERTEX
  8
ITEM_50
 10
72.29999999999999
 20
8.199999999999999
 30
0.0
 42
0.414214
  0
VERTEX
  8
ITEM_50
 10
71.79999999999999
 20
7.7
 30
0.0
  0
VERTEX
  8
ITEM_50
 10
71.79999999999999
 20
2.299999999999999
 30
0.0
 42
0.414214
  0
VERTEX
  8
ITEM_50
 10
72.29999999999999
 20
1.8
 30
0.0
  0
SEQEND
  8
ITEM_50
  0
POINT
  8
ITEM_HILFE
 10
60.0
 20
0.0
 30
0.0
  0
POINT
  8
ITEM_HILFE
 10
20.0
 20
0.0
 30
0.0
  0
POINT
  8
ITEM_HILFE
 10
0.0
 20
60.0
 30
0.0
  0
POINT
  8
ITEM_HILFE
 10
0.0
 20
20.0
 30
0.0
  0
POINT
  8
ITEM_HILFE
 10
80.0
 20
20.0
 30
0.0
  0
POINT
  8
ITEM_HILFE
 10
80.0
 20
60.0
 30
0.0
  0
POINT
  8
ITEM_HILFE
 10
60.0
 20
80.0
 30
0.0
  0
POINT
  8
ITEM_HILFE
 10
20.0
 20
80.0
 30
0.0
  0
CIRCLE
  8
ITEM_50
 10
60.0
 20
20.0
 30
0.0
 40
3.399999999999999
  0
POINT
  8
ITEM_HILFE
 10
80.0
 20
0.0
 30
0.0
  0
POINT
  8
ITEM_HILFE
 10
40.0
 20
0.0
 30
0.0
  0
POINT
  8
ITEM_HILFE
 10
40.0
 20
0.0
 30
0.0
  0
POINT
  8
ITEM_HILFE
 10
0.0
 20
0.0
 30
0.0
  0
CIRCLE
  8
ITEM_50
 10
20.0
 20
20.0
 30
0.0
 40
3.399999999999999
  0
LINE
  8
ITEM_50
 10
20.0
 20
52.25
 30
0.0
 11
21.89466099999999
 21
52.25
 31
0.0
  0
LINE
  8
ITEM_50
 10
2.0
 20
67.5
 30
0.0
 11
2.0
 21
67.5
 31
0.0
  0
CIRCLE
  8
ITEM_50
 10
20.0
 20
60.0
 30
0.0
 40
3.399999999999999
  0
LINE
  8
ITEM_50
 10
2.0
 20
52.5
 30
0.0
 11
2.0
 21
52.5
 31
0.0
  0
POINT
  8
ITEM_HILFE
 10
0.0
 20
80.0
 30
0.0
  0
POINT
  8
ITEM_HILFE
 10
40.0
 20
80.0
 30
0.0
  0
POINT
  8
ITEM_HILFE
 10
40.0
 20
80.0
 30
0.0
  0
POINT
  8
ITEM_HILFE
 10
80.0
 20
80.0
 30
0.0
  0
LINE
  8
ITEM_50
 10
78.0
 20
52.5
 30
0.0
 11
78.0
 21
52.5
 31
0.0
  0
CIRCLE
  8
ITEM_50
 10
60.0
 20
60.0
 30
0.0
 40
3.399999999999999
  0
LINE
  8
ITEM_50
 10
78.0
 20
67.5
 30
0.0
 11
78.0
 21
67.5
 31
0.0
  0
POINT
  8
ITEM_HILFE
 10
4.5
 20
20.0
 30
0.0
  0
POINT
  8
ITEM_HILFE
 10
4.5
 20
60.0
 30
0.0
  0
POINT
  8
ITEM_HILFE
 10
75.5
 20
20.0
 30
0.0
  0
POINT
  8
ITEM_HILFE
 10
75.5
 20
60.0
 30
0.0
  0
POINT
  8
ITEM_HILFE
 10
20.0
 20
75.5
 30
0.0
  0
POINT
  8
ITEM_HILFE
 10
60.0
 20
75.5
 30
0.0
  0
POINT
  8
ITEM_HILFE
 10
20.0
 20
4.5
 30
0.0
  0
POINT
  8
ITEM_HILFE
 10
60.0
 20
4.5
 30
0.0
  0
ARC
  8
ITEM_50
 10
4.0
 20
4.0
 30
0.0
 40
2.2
 50
180.0
 51
270.0
  0
LINE
  8
ITEM_50
 10
1.8
 20
4.0
 30
0.0
 11
1.8
 21
7.7
 31
0.0
  0
ARC
  8
ITEM_50
 10
2.299999999999999
 20
7.7
 30
0.0
 40
0.5
 50
90.0
 51
180.0
  0
LINE
  8
ITEM_50
 10
2.299999999999999
 20
8.199999999999999
 30
0.0
 11
7.7
 21
8.199999999999999
 31
0.0
  0
ARC
  8
ITEM_50
 10
7.7
 20
7.7
 30
0.0
 40
0.5
 50
0.0
 51
90.0
  0
LINE
  8
ITEM_50
 10
8.199999999999999
 20
7.7
 30
0.0
 11
8.199999999999999
 21
2.299999999999999
 31
0.0
  0
ARC
  8
ITEM_50
 10
7.7
 20
2.299999999999999
 30
0.0
 40
0.5
 50
270.0
 51
0.0
  0
LINE
  8
ITEM_50
 10
7.7
 20
1.8
 30
0.0
 11
4.0
 21
1.8
 31
0.0
  0
ARC
  8
ITEM_50
 10
78.5
 20
25.5
 30
0.0
 40
1.5
 50
270.0
 51
0.0
  0
LINE
  8
ITEM_50
 10
78.5
 20
24.0
 30
0.0
 11
76.5
 21
24.0
 31
0.0
  0
ARC
  8
ITEM_50
 10
76.5
 20
25.0
 30
0.0
 40
1.0
 50
180.0
 51
270.0
  0
LINE
  8
ITEM_50
 10
75.5
 20
25.0
 30
0.0
 11
75.5
 21
26.5
 31
0.0
  0
ARC
  8
ITEM_50
 10
76.0
 20
26.5
 30
0.0
 40
0.5
 50
90.0
 51
180.0
  0
LINE
  8
ITEM_50
 10
76.0
 20
27.0
 30
0.0
 11
77.5
 21
27.0
 31
0.0
  0
ARC
  8
ITEM_50
 10
77.5
 20
27.5
 30
0.0
 40
0.5
 50
270.0
 51
0.0
  0
LINE
  8
ITEM_50
 10
78.0
 20
27.5
 30
0.0
 11
78.0
 21
27.5
 31
0.0
  0
ARC
  8
ITEM_50
 10
75.5
 20
27.5
 30
0.0
 40
2.5
 50
0.0
 51
90.0
  0
LINE
  8
ITEM_50
 10
75.5
 20
30.0
 30
0.0
 11
74.19238799999999
 21
30.0
 31
0.0
  0
ARC
  8
ITEM_50
 10
74.19238799999999
 20
25.0
 30
0.0
 40
5.0
 50
90.0
 51
135.0
  0
LINE
  8
ITEM_50
 10
70.65685399999999
 20
28.53553399999999
 30
0.0
 11
69.214466
 21
27.093146
 31
0.0
  0
ARC
  8
ITEM_50
 10
72.75
 20
23.55761199999999
 30
0.0
 40
5.0
 50
135.0
 51
180.0
  0
LINE
  8
ITEM_50
 10
67.75
 20
23.55761199999999
 30
0.0
 11
67.75
 21
20.0
 31
0.0
  0
LINE
  8
ITEM_50
 10
67.75
 20
20.0
 30
0.0
 11
67.75
 21
16.442388
 31
0.0
  0
ARC
  8
ITEM_50
 10
72.75
 20
16.442388
 30
0.0
 40
5.0
 50
180.0
 51
225.0
  0
LINE
  8
ITEM_50
 10
69.214466
 20
12.90685399999999
 30
0.0
 11
70.65685399999999
 21
11.46446599999999
 31
0.0
  0
ARC
  8
ITEM_50
 10
74.19238799999999
 20
15.0
 30
0.0
 40
5.0
 50
225.0
 51
270.0
  0
LINE
  8
ITEM_50
 10
74.19238799999999
 20
10.0
 30
0.0
 11
75.5
 21
10.0
 31
0.0
  0
ARC
  8
ITEM_50
 10
75.5
 20
12.5
 30
0.0
 40
2.5
 50
270.0
 51
0.0
  0
LINE
  8
ITEM_50
 10
78.0
 20
12.5
 30
0.0
 11
78.0
 21
12.5
 31
0.0
  0
ARC
  8
ITEM_50
 10
77.5
 20
12.5
 30
0.0
 40
0.5
 50
0.0
 51
90.0
  0
LINE
  8
ITEM_50
 10
77.5
 20
13.0
 30
0.0
 11
76.0
 21
13.0
 31
0.0
  0
ARC
  8
ITEM_50
 10
76.0
 20
13.5
 30
0.0
 40
0.5
 50
180.0
 51
270.0
  0
LINE
  8
ITEM_50
 10
75.5
 20
13.5
 30
0.0
 11
75.5
 21
15.0
 31
0.0
  0
ARC
  8
ITEM_50
 10
76.5
 20
15.0
 30
0.0
 40
1.0
 50
90.0
 51
180.0
  0
LINE
  8
ITEM_50
 10
76.5
 20
16.0
 30
0.0
 11
78.5
 21
16.0
 31
0.0
  0
ARC
  8
ITEM_50
 10
78.5
 20
14.5
 30
0.0
 40
1.5
 50
0.0
 51
90.0
  0
LINE
  8
ITEM_50
 10
80.0
 20
14.5
 30
0.0
 11
80.0
 21
4.0
 31
0.0
  0
ARC
  8
ITEM_50
 10
76.0
 20
4.0
 30
0.0
 40
4.0
 50
270.0
 51
0.0
  0
LINE
  8
ITEM_50
 10
76.0
 20
0.0
 30
0.0
 11
65.5
 21
0.0
 31
0.0
  0
ARC
  8
ITEM_50
 10
65.5
 20
1.5
 30
0.0
 40
1.5
 50
180.0
 51
270.0
  0
LINE
  8
ITEM_50
 10
64.0
 20
1.5
 30
0.0
 11
64.0
 21
3.5
 31
0.0
  0
ARC
  8
ITEM_50
 10
65.0
 20
3.5
 30
0.0
 40
1.0
 50
90.0
 51
180.0
  0
LINE
  8
ITEM_50
 10
65.0
 20
4.5
 30
0.0
 11
66.5
 21
4.5
 31
0.0
  0
ARC
  8
ITEM_50
 10
66.5
 20
4.0
 30
0.0
 40
0.5
 50
0.0
 51
90.0
  0
LINE
  8
ITEM_50
 10
67.0
 20
4.0
 30
0.0
 11
67.0
 21
2.5
 31
0.0
  0
ARC
  8
ITEM_50
 10
67.5
 20
2.5
 30
0.0
 40
0.5
 50
180.0
 51
270.0
  0
ARC
  8
ITEM_50
 10
67.5
 20
4.5
 30
0.0
 40
2.5
 50
270.0
 51
0.0
  0
LINE
  8
ITEM_50
 10
70.0
 20
4.5
 30
0.0
 11
70.0
 21
5.807611999999999
 31
0.0
  0
ARC
  8
ITEM_50
 10
65.0
 20
5.807611999999999
 30
0.0
 40
5.0
 50
0.0
 51
45.0
  0
LINE
  8
ITEM_50
 10
68.53553399999999
 20
9.343146
 30
0.0
 11
67.093146
 21
10.785534
 31
0.0
  0
ARC
  8
ITEM_50
 10
63.55761199999999
 20
7.25
 30
0.0
 40
5.0
 50
45.0
 51
90.0
  0
LINE
  8
ITEM_50
 10
63.55761199999999
 20
12.25
 30
0.0
 11
60.0
 21
12.25
 31
0.0
  0
LINE
  8
ITEM_50
 10
60.0
 20
12.25
 30
0.0
 11
56.442388
 21
12.25
 31
0.0
  0
ARC
  8
ITEM_50
 10
56.442388
 20
7.25
 30
0.0
 40
5.0
 50
90.0
 51
135.0
  0
LINE
  8
ITEM_50
 10
52.906854
 20
10.785534
 30
0.0
 11
51.464466
 21
9.343146
 31
0.0
  0
ARC
  8
ITEM_50
 10
55.0
 20
5.807611999999999
 30
0.0
 40
5.0
 50
135.0
 51
180.0
  0
LINE
  8
ITEM_50
 10
50.0
 20
5.807611999999999
 30
0.0
 11
50.0
 21
4.5
 31
0.0
  0
ARC
  8
ITEM_50
 10
52.5
 20
4.5
 30
0.0
 40
2.5
 50
180.0
 51
270.0
  0
ARC
  8
ITEM_50
 10
52.5
 20
2.5
 30
0.0
 40
0.5
 50
270.0
 51
0.0
  0
LINE
  8
ITEM_50
 10
53.0
 20
2.5
 30
0.0
 11
53.0
 21
4.0
 31
0.0
  0
ARC
  8
ITEM_50
 10
53.5
 20
4.0
 30
0.0
 40
0.5
 50
90.0
 51
180.0
  0
LINE
  8
ITEM_50
 10
53.5
 20
4.5
 30
0.0
 11
55.0
 21
4.5
 31
0.0
  0
ARC
  8
ITEM_50
 10
55.0
 20
3.5
 30
0.0
 40
1.0
 50
0.0
 51
90.0
  0
LINE
  8
ITEM_50
 10
56.0
 20
3.5
 30
0.0
 11
56.0
 21
1.5
 31
0.0
  0
ARC
  8
ITEM_50
 10
54.5
 20
1.5
 30
0.0
 40
1.5
 50
270.0
 51
0.0
  0
LINE
  8
ITEM_50
 10
54.5
 20
0.0
 30
0.0
 11
40.0
 21
0.0
 31
0.0
  0
LINE
  8
ITEM_50
 10
40.0
 20
0.0
 30
0.0
 11
25.5
 21
0.0
 31
0.0
  0
ARC
  8
ITEM_50
 10
25.5
 20
1.5
 30
0.0
 40
1.5
 50
180.0
 51
270.0
  0
LINE
  8
ITEM_50
 10
24.0
 20
1.5
 30
0.0
 11
24.0
 21
3.5
 31
0.0
  0
ARC
  8
ITEM_50
 10
25.0
 20
3.5
 30
0.0
 40
1.0
 50
90.0
 51
180.0
  0
LINE
  8
ITEM_50
 10
25.0
 20
4.5
 30
0.0
 11
26.5
 21
4.5
 31
0.0
  0
ARC
  8
ITEM_50
 10
26.5
 20
4.0
 30
0.0
 40
0.5
 50
0.0
 51
90.0
  0
LINE
  8
ITEM_50
 10
27.0
 20
4.0
 30
0.0
 11
27.0
 21
2.5
 31
0.0
  0
ARC
  8
ITEM_50
 10
27.5
 20
2.5
 30
0.0
 40
0.5
 50
180.0
 51
270.0
  0
ARC
  8
ITEM_50
 10
27.5
 20
4.5
 30
0.0
 40
2.5
 50
270.0
 51
0.0
  0
LINE
  8
ITEM_50
 10
30.0
 20
4.5
 30
0.0
 11
30.0
 21
5.807611999999999
 31
0.0
  0
ARC
  8
ITEM_50
 10
25.0
 20
5.807611999999999
 30
0.0
 40
5.0
 50
0.0
 51
45.0
  0
LINE
  8
ITEM_50
 10
28.53553399999999
 20
9.343146
 30
0.0
 11
27.093146
 21
10.785534
 31
0.0
  0
ARC
  8
ITEM_50
 10
23.55761199999999
 20
7.25
 30
0.0
 40
5.0
 50
45.0
 51
90.0
  0
LINE
  8
ITEM_50
 10
23.55761199999999
 20
12.25
 30
0.0
 11
20.0
 21
12.25
 31
0.0
  0
LINE
  8
ITEM_50
 10
20.0
 20
12.25
 30
0.0
 11
16.442388
 21
12.25
 31
0.0
  0
ARC
  8
ITEM_50
 10
16.442388
 20
7.25
 30
0.0
 40
5.0
 50
90.0
 51
135.0
  0
LINE
  8
ITEM_50
 10
12.90685399999999
 20
10.785534
 30
0.0
 11
11.46446599999999
 21
9.343146
 31
0.0
  0
ARC
  8
ITEM_50
 10
15.0
 20
5.807611999999999
 30
0.0
 40
5.0
 50
135.0
 51
180.0
  0
LINE
  8
ITEM_50
 10
10.0
 20
5.807611999999999
 30
0.0
 11
10.0
 21
4.5
 31
0.0
  0
ARC
  8
ITEM_50
 10
12.5
 20
4.5
 30
0.0
 40
2.5
 50
180.0
 51
270.0
  0
ARC
  8
ITEM_50
 10
12.5
 20
2.5
 30
0.0
 40
0.5
 50
270.0
 51
0.0
  0
LINE
  8
ITEM_50
 10
13.0
 20
2.5
 30
0.0
 11
13.0
 21
4.0
 31
0.0
  0
ARC
  8
ITEM_50
 10
13.5
 20
4.0
 30
0.0
 40
0.5
 50
90.0
 51
180.0
  0
LINE
  8
ITEM_50
 10
13.5
 20
4.5
 30
0.0
 11
15.0
 21
4.5
 31
0.0
  0
ARC
  8
ITEM_50
 10
15.0
 20
3.5
 30
0.0
 40
1.0
 50
0.0
 51
90.0
  0
LINE
  8
ITEM_50
 10
16.0
 20
3.5
 30
0.0
 11
16.0
 21
1.5
 31
0.0
  0
ARC
  8
ITEM_50
 10
14.5
 20
1.5
 30
0.0
 40
1.5
 50
270.0
 51
0.0
  0
LINE
  8
ITEM_50
 10
14.5
 20
0.0
 30
0.0
 11
4.0
 21
0.0
 31
0.0
  0
ARC
  8
ITEM_50
 10
4.0
 20
4.0
 30
0.0
 40
4.0
 50
180.0
 51
270.0
  0
LINE
  8
ITEM_50
 10
0.0
 20
4.0
 30
0.0
 11
0.0
 21
14.5
 31
0.0
  0
ARC
  8
ITEM_50
 10
1.5
 20
14.5
 30
0.0
 40
1.5
 50
90.0
 51
180.0
  0
LINE
  8
ITEM_50
 10
1.5
 20
16.0
 30
0.0
 11
3.5
 21
16.0
 31
0.0
  0
ARC
  8
ITEM_50
 10
3.5
 20
15.0
 30
0.0
 40
1.0
 50
0.0
 51
90.0
  0
LINE
  8
ITEM_50
 10
4.5
 20
15.0
 30
0.0
 11
4.5
 21
13.5
 31
0.0
  0
ARC
  8
ITEM_50
 10
4.0
 20
13.5
 30
0.0
 40
0.5
 50
270.0
 51
0.0
  0
LINE
  8
ITEM_50
 10
4.0
 20
13.0
 30
0.0
 11
2.5
 21
13.0
 31
0.0
  0
ARC
  8
ITEM_50
 10
2.5
 20
12.5
 30
0.0
 40
0.5
 50
90.0
 51
180.0
  0
LINE
  8
ITEM_50
 10
2.0
 20
12.5
 30
0.0
 11
2.0
 21
12.5
 31
0.0
  0
ARC
  8
ITEM_50
 10
4.5
 20
12.5
 30
0.0
 40
2.5
 50
180.0
 51
270.0
  0
LINE
  8
ITEM_50
 10
4.5
 20
10.0
 30
0.0
 11
5.807611999999999
 21
10.0
 31
0.0
  0
ARC
  8
ITEM_50
 10
5.807611999999999
 20
15.0
 30
0.0
 40
5.0
 50
270.0
 51
315.0
  0
LINE
  8
ITEM_50
 10
9.343146
 20
11.46446599999999
 30
0.0
 11
10.785534
 21
12.90685399999999
 31
0.0
  0
ARC
  8
ITEM_50
 10
7.25
 20
16.442388
 30
0.0
 40
5.0
 50
315.0
 51
0.0
  0
LINE
  8
ITEM_50
 10
12.25
 20
16.442388
 30
0.0
 11
12.25
 21
20.0
 31
0.0
  0
LINE
  8
ITEM_50
 10
12.25
 20
20.0
 30
0.0
 11
12.25
 21
23.55761199999999
 31
0.0
  0
ARC
  8
ITEM_50
 10
7.25
 20
23.55761199999999
 30
0.0
 40
5.0
 50
0.0
 51
45.0
  0
LINE
  8
ITEM_50
 10
10.785534
 20
27.093146
 30
0.0
 11
9.343146
 21
28.53553399999999
 31
0.0
  0
ARC
  8
ITEM_50
 10
5.807611999999999
 20
25.0
 30
0.0
 40
5.0
 50
45.0
 51
90.0
  0
LINE
  8
ITEM_50
 10
5.807611999999999
 20
30.0
 30
0.0
 11
4.5
 21
30.0
 31
0.0
  0
ARC
  8
ITEM_50
 10
4.5
 20
27.5
 30
0.0
 40
2.5
 50
90.0
 51
180.0
  0
LINE
  8
ITEM_50
 10
2.0
 20
27.5
 30
0.0
 11
2.0
 21
27.5
 31
0.0
  0
ARC
  8
ITEM_50
 10
2.5
 20
27.5
 30
0.0
 40
0.5
 50
180.0
 51
270.0
  0
LINE
  8
ITEM_50
 10
2.5
 20
27.0
 30
0.0
 11
4.0
 21
27.0
 31
0.0
  0
ARC
  8
ITEM_50
 10
4.0
 20
26.5
 30
0.0
 40
0.5
 50
0.0
 51
90.0
  0
LINE
  8
ITEM_50
 10
4.5
 20
26.5
 30
0.0
 11
4.5
 21
25.0
 31
0.0
  0
ARC
  8
ITEM_50
 10
3.5
 20
25.0
 30
0.0
 40
1.0
 50
270.0
 51
0.0
  0
LINE
  8
ITEM_50
 10
3.5
 20
24.0
 30
0.0
 11
1.5
 21
24.0
 31
0.0
  0
ARC
  8
ITEM_50
 10
1.5
 20
25.5
 30
0.0
 40
1.5
 50
180.0
 51
270.0
  0
LINE
  8
ITEM_50
 10
0.0
 20
25.5
 30
0.0
 11
0.0
 21
40.0
 31
0.0
  0
LINE
  8
ITEM_50
 10
0.0
 20
40.0
 30
0.0
 11
0.0
 21
54.5
 31
0.0
  0
ARC
  8
ITEM_50
 10
1.5
 20
54.5
 30
0.0
 40
1.5
 50
90.0
 51
180.0
  0
LINE
  8
ITEM_50
 10
1.5
 20
56.0
 30
0.0
 11
3.5
 21
56.0
 31
0.0
  0
ARC
  8
ITEM_50
 10
3.5
 20
55.0
 30
0.0
 40
1.0
 50
0.0
 51
90.0
  0
LINE
  8
ITEM_50
 10
4.5
 20
55.0
 30
0.0
 11
4.5
 21
53.5
 31
0.0
  0
ARC
  8
ITEM_50
 10
4.0
 20
53.5
 30
0.0
 40
0.5
 50
270.0
 51
0.0
  0
LINE
  8
ITEM_50
 10
4.0
 20
53.0
 30
0.0
 11
2.5
 21
53.0
 31
0.0
  0
ARC
  8
ITEM_50
 10
2.5
 20
52.5
 30
0.0
 40
0.5
 50
90.0
 51
180.0
  0
ARC
  8
ITEM_50
 10
4.5
 20
52.5
 30
0.0
 40
2.5
 50
180.0
 51
270.0
  0
LINE
  8
ITEM_50
 10
4.5
 20
50.0
 30
0.0
 11
5.807611999999999
 21
50.0
 31
0.0
  0
ARC
  8
ITEM_50
 10
5.807611999999999
 20
55.0
 30
0.0
 40
5.0
 50
270.0
 51
315.0
  0
LINE
  8
ITEM_50
 10
9.343146
 20
51.464466
 30
0.0
 11
10.785534
 21
52.906854
 31
0.0
  0
ARC
  8
ITEM_50
 10
7.25
 20
56.442388
 30
0.0
 40
5.0
 50
315.0
 51
0.0
  0
LINE
  8
ITEM_50
 10
12.25
 20
56.442388
 30
0.0
 11
12.25
 21
60.0
 31
0.0
  0
LINE
  8
ITEM_50
 10
12.25
 20
60.0
 30
0.0
 11
12.25
 21
63.55761199999999
 31
0.0
  0
ARC
  8
ITEM_50
 10
7.25
 20
63.55761199999999
 30
0.0
 40
5.0
 50
0.0
 51
45.0
  0
LINE
  8
ITEM_50
 10
10.785534
 20
67.093146
 30
0.0
 11
9.343146
 21
68.53553399999999
 31
0.0
  0
ARC
  8
ITEM_50
 10
5.807611999999999
 20
65.0
 30
0.0
 40
5.0
 50
45.0
 51
90.0
  0
LINE
  8
ITEM_50
 10
5.807611999999999
 20
70.0
 30
0.0
 11
4.5
 21
70.0
 31
0.0
  0
ARC
  8
ITEM_50
 10
4.5
 20
67.5
 30
0.0
 40
2.5
 50
90.0
 51
180.0
  0
ARC
  8
ITEM_50
 10
2.5
 20
67.5
 30
0.0
 40
0.5
 50
180.0
 51
270.0
  0
LINE
  8
ITEM_50
 10
2.5
 20
67.0
 30
0.0
 11
4.0
 21
67.0
 31
0.0
  0
ARC
  8
ITEM_50
 10
4.0
 20
66.5
 30
0.0
 40
0.5
 50
0.0
 51
90.0
  0
LINE
  8
ITEM_50
 10
4.5
 20
66.5
 30
0.0
 11
4.5
 21
65.0
 31
0.0
  0
ARC
  8
ITEM_50
 10
3.5
 20
65.0
 30
0.0
 40
1.0
 50
270.0
 51
0.0
  0
LINE
  8
ITEM_50
 10
3.5
 20
64.0
 30
0.0
 11
1.5
 21
64.0
 31
0.0
  0
ARC
  8
ITEM_50
 10
1.5
 20
65.5
 30
0.0
 40
1.5
 50
180.0
 51
270.0
  0
LINE
  8
ITEM_50
 10
0.0
 20
65.5
 30
0.0
 11
0.0
 21
76.0
 31
0.0
  0
ARC
  8
ITEM_50
 10
4.0
 20
76.0
 30
0.0
 40
4.0
 50
90.0
 51
180.0
  0
LINE
  8
ITEM_50
 10
4.0
 20
80.0
 30
0.0
 11
14.5
 21
80.0
 31
0.0
  0
ARC
  8
ITEM_50
 10
14.5
 20
78.5
 30
0.0
 40
1.5
 50
0.0
 51
90.0
  0
LINE
  8
ITEM_50
 10
16.0
 20
78.5
 30
0.0
 11
16.0
 21
76.5
 31
0.0
  0
ARC
  8
ITEM_50
 10
15.0
 20
76.5
 30
0.0
 40
1.0
 50
270.0
 51
0.0
  0
LINE
  8
ITEM_50
 10
15.0
 20
75.5
 30
0.0
 11
13.5
 21
75.5
 31
0.0
  0
ARC
  8
ITEM_50
 10
13.5
 20
76.0
 30
0.0
 40
0.5
 50
180.0
 51
270.0
  0
LINE
  8
ITEM_50
 10
13.0
 20
76.0
 30
0.0
 11
13.0
 21
77.5
 31
0.0
  0
ARC
  8
ITEM_50
 10
12.5
 20
77.5
 30
0.0
 40
0.5
 50
0.0
 51
90.0
  0
ARC
  8
ITEM_50
 10
12.5
 20
75.5
 30
0.0
 40
2.5
 50
90.0
 51
180.0
  0
LINE
  8
ITEM_50
 10
10.0
 20
75.5
 30
0.0
 11
10.0
 21
74.19238799999999
 31
0.0
  0
ARC
  8
ITEM_50
 10
15.0
 20
74.19238799999999
 30
0.0
 40
5.0
 50
180.0
 51
225.0
  0
LINE
  8
ITEM_50
 10
11.46446599999999
 20
70.65685399999999
 30
0.0
 11
12.90685399999999
 21
69.214466
 31
0.0
  0
ARC
  8
ITEM_50
 10
16.442388
 20
72.75
 30
0.0
 40
5.0
 50
225.0
 51
270.0
  0
LINE
  8
ITEM_50
 10
16.442388
 20
67.75
 30
0.0
 11
20.0
 21
67.75
 31
0.0
  0
LINE
  8
ITEM_50
 10
20.0
 20
67.75
 30
0.0
 11
23.55761199999999
 21
67.75
 31
0.0
  0
ARC
  8
ITEM_50
 10
23.55761199999999
 20
72.75
 30
0.0
 40
5.0
 50
270.0
 51
315.0
  0
LINE
  8
ITEM_50
 10
27.093146
 20
69.214466
 30
0.0
 11
28.53553399999999
 21
70.65685399999999
 31
0.0
  0
ARC
  8
ITEM_50
 10
25.0
 20
74.19238799999999
 30
0.0
 40
5.0
 50
315.0
 51
0.0
  0
LINE
  8
ITEM_50
 10
30.0
 20
74.19238799999999
 30
0.0
 11
30.0
 21
75.5
 31
0.0
  0
ARC
  8
ITEM_50
 10
27.5
 20
75.5
 30
0.0
 40
2.5
 50
0.0
 51
90.0
  0
ARC
  8
ITEM_50
 10
27.5
 20
77.5
 30
0.0
 40
0.5
 50
90.0
 51
180.0
  0
LINE
  8
ITEM_50
 10
27.0
 20
77.5
 30
0.0
 11
27.0
 21
76.0
 31
0.0
  0
ARC
  8
ITEM_50
 10
26.5
 20
76.0
 30
0.0
 40
0.5
 50
270.0
 51
0.0
  0
LINE
  8
ITEM_50
 10
26.5
 20
75.5
 30
0.0
 11
25.0
 21
75.5
 31
0.0
  0
ARC
  8
ITEM_50
 10
25.0
 20
76.5
 30
0.0
 40
1.0
 50
180.0
 51
270.0
  0
LINE
  8
ITEM_50
 10
24.0
 20
76.5
 30
0.0
 11
24.0
 21
78.5
 31
0.0
  0
ARC
  8
ITEM_50
 10
25.5
 20
78.5
 30
0.0
 40
1.5
 50
90.0
 51
180.0
  0
LINE
  8
ITEM_50
 10
25.5
 20
80.0
 30
0.0
 11
40.0
 21
80.0
 31
0.0
  0
LINE
  8
ITEM_50
 10
40.0
 20
80.0
 30
0.0
 11
54.5
 21
80.0
 31
0.0
  0
ARC
  8
ITEM_50
 10
54.5
 20
78.5
 30
0.0
 40
1.5
 50
0.0
 51
90.0
  0
LINE
  8
ITEM_50
 10
56.0
 20
78.5
 30
0.0
 11
56.0
 21
76.5
 31
0.0
  0
ARC
  8
ITEM_50
 10
55.0
 20
76.5
 30
0.0
 40
1.0
 50
270.0
 51
0.0
  0
LINE
  8
ITEM_50
 10
55.0
 20
75.5
 30
0.0
 11
53.5
 21
75.5
 31
0.0
  0
ARC
  8
ITEM_50
 10
53.5
 20
76.0
 30
0.0
 40
0.5
 50
180.0
 51
270.0
  0
LINE
  8
ITEM_50
 10
53.0
 20
76.0
 30
0.0
 11
53.0
 21
77.5
 31
0.0
  0
ARC
  8
ITEM_50
 10
52.5
 20
77.5
 30
0.0
 40
0.5
 50
0.0
 51
90.0
  0
ARC
  8
ITEM_50
 10
52.5
 20
75.5
 30
0.0
 40
2.5
 50
90.0
 51
180.0
  0
LINE
  8
ITEM_50
 10
50.0
 20
75.5
 30
0.0
 11
50.0
 21
74.19238799999999
 31
0.0
  0
ARC
  8
ITEM_50
 10
55.0
 20
74.19238799999999
 30
0.0
 40
5.0
 50
180.0
 51
225.0
  0
LINE
  8
ITEM_50
 10
51.464466
 20
70.65685399999999
 30
0.0
 11
52.906854
 21
69.214466
 31
0.0
  0
ARC
  8
ITEM_50
 10
56.442388
 20
72.75
 30
0.0
 40
5.0
 50
225.0
 51
270.0
  0
LINE
  8
ITEM_50
 10
56.442388
 20
67.75
 30
0.0
 11
60.0
 21
67.75
 31
0.0
  0
LINE
  8
ITEM_50
 10
60.0
 20
67.75
 30
0.0
 11
63.55761199999999
 21
67.75
 31
0.0
  0
ARC
  8
ITEM_50
 10
63.55761199999999
 20
72.75
 30
0.0
 40
5.0
 50
270.0
 51
315.0
  0
LINE
  8
ITEM_50
 10
67.093146
 20
69.214466
 30
0.0
 11
68.53553399999999
 21
70.65685399999999
 31
0.0
  0
ARC
  8
ITEM_50
 10
65.0
 20
74.19238799999999
 30
0.0
 40
5.0
 50
315.0
 51
0.0
  0
LINE
  8
ITEM_50
 10
70.0
 20
74.19238799999999
 30
0.0
 11
70.0
 21
75.5
 31
0.0
  0
ARC
  8
ITEM_50
 10
67.5
 20
75.5
 30
0.0
 40
2.5
 50
0.0
 51
90.0
  0
ARC
  8
ITEM_50
 10
67.5
 20
77.5
 30
0.0
 40
0.5
 50
90.0
 51
180.0
  0
LINE
  8
ITEM_50
 10
67.0
 20
77.5
 30
0.0
 11
67.0
 21
76.0
 31
0.0
  0
ARC
  8
ITEM_50
 10
66.5
 20
76.0
 30
0.0
 40
0.5
 50
270.0
 51
0.0
  0
LINE
  8
ITEM_50
 10
66.5
 20
75.5
 30
0.0
 11
65.0
 21
75.5
 31
0.0
  0
ARC
  8
ITEM_50
 10
65.0
 20
76.5
 30
0.0
 40
1.0
 50
180.0
 51
270.0
  0
LINE
  8
ITEM_50
 10
64.0
 20
76.5
 30
0.0
 11
64.0
 21
78.5
 31
0.0
  0
ARC
  8
ITEM_50
 10
65.5
 20
78.5
 30
0.0
 40
1.5
 50
90.0
 51
180.0
  0
LINE
  8
ITEM_50
 10
65.5
 20
80.0
 30
0.0
 11
76.0
 21
80.0
 31
0.0
  0
ARC
  8
ITEM_50
 10
76.0
 20
76.0
 30
0.0
 40
4.0
 50
0.0
 51
90.0
  0
LINE
  8
ITEM_50
 10
80.0
 20
76.0
 30
0.0
 11
80.0
 21
65.5
 31
0.0
  0
ARC
  8
ITEM_50
 10
78.5
 20
65.5
 30
0.0
 40
1.5
 50
270.0
 51
0.0
  0
LINE
  8
ITEM_50
 10
78.5
 20
64.0
 30
0.0
 11
76.5
 21
64.0
 31
0.0
  0
ARC
  8
ITEM_50
 10
76.5
 20
65.0
 30
0.0
 40
1.0
 50
180.0
 51
270.0
  0
LINE
  8
ITEM_50
 10
75.5
 20
65.0
 30
0.0
 11
75.5
 21
66.5
 31
0.0
  0
ARC
  8
ITEM_50
 10
76.0
 20
66.5
 30
0.0
 40
0.5
 50
90.0
 51
180.0
  0
LINE
  8
ITEM_50
 10
76.0
 20
67.0
 30
0.0
 11
77.5
 21
67.0
 31
0.0
  0
ARC
  8
ITEM_50
 10
77.5
 20
67.5
 30
0.0
 40
0.5
 50
270.0
 51
0.0
  0
ARC
  8
ITEM_50
 10
75.5
 20
67.5
 30
0.0
 40
2.5
 50
0.0
 51
90.0
  0
LINE
  8
ITEM_50
 10
75.5
 20
70.0
 30
0.0
 11
74.19238799999999
 21
70.0
 31
0.0
  0
ARC
  8
ITEM_50
 10
74.19238799999999
 20
65.0
 30
0.0
 40
5.0
 50
90.0
 51
135.0
  0
LINE
  8
ITEM_50
 10
70.65685399999999
 20
68.53553399999999
 30
0.0
 11
69.214466
 21
67.093146
 31
0.0
  0
ARC
  8
ITEM_50
 10
72.75
 20
63.55761199999999
 30
0.0
 40
5.0
 50
135.0
 51
180.0
  0
LINE
  8
ITEM_50
 10
67.75
 20
63.55761199999999
 30
0.0
 11
67.75
 21
60.0
 31
0.0
  0
LINE
  8
ITEM_50
 10
67.75
 20
60.0
 30
0.0
 11
67.75
 21
56.442388
 31
0.0
  0
ARC
  8
ITEM_50
 10
72.75
 20
56.442388
 30
0.0
 40
5.0
 50
180.0
 51
225.0
  0
LINE
  8
ITEM_50
 10
69.214466
 20
52.906854
 30
0.0
 11
70.65685399999999
 21
51.464466
 31
0.0
  0
ARC
  8
ITEM_50
 10
74.19238799999999
 20
55.0
 30
0.0
 40
5.0
 50
225.0
 51
270.0
  0
LINE
  8
ITEM_50
 10
74.19238799999999
 20
50.0
 30
0.0
 11
75.5
 21
50.0
 31
0.0
  0
ARC
  8
ITEM_50
 10
75.5
 20
52.5
 30
0.0
 40
2.5
 50
270.0
 51
0.0
  0
ARC
  8
ITEM_50
 10
77.5
 20
52.5
 30
0.0
 40
0.5
 50
0.0
 51
90.0
  0
LINE
  8
ITEM_50
 10
77.5
 20
53.0
 30
0.0
 11
76.0
 21
53.0
 31
0.0
  0
ARC
  8
ITEM_50
 10
76.0
 20
53.5
 30
0.0
 40
0.5
 50
180.0
 51
270.0
  0
LINE
  8
ITEM_50
 10
75.5
 20
53.5
 30
0.0
 11
75.5
 21
55.0
 31
0.0
  0
ARC
  8
ITEM_50
 10
76.5
 20
55.0
 30
0.0
 40
1.0
 50
90.0
 51
180.0
  0
LINE
  8
ITEM_50
 10
76.5
 20
56.0
 30
0.0
 11
78.5
 21
56.0
 31
0.0
  0
ARC
  8
ITEM_50
 10
78.5
 20
54.5
 30
0.0
 40
1.5
 50
0.0
 51
90.0
  0
LINE
  8
ITEM_50
 10
80.0
 20
54.5
 30
0.0
 11
80.0
 21
40.0
 31
0.0
  0
LINE
  8
ITEM_50
 10
80.0
 20
40.0
 30
0.0
 11
80.0
 21
25.5
 31
0.0
  0
ARC
  8
ITEM_50
 10
4.0
 20
76.0
 30
0.0
 40
2.2
 50
90.0
 51
180.0
  0
LINE
  8
ITEM_50
 10
1.8
 20
76.0
 30
0.0
 11
1.8
 21
72.29999999999999
 31
0.0
  0
ARC
  8
ITEM_50
 10
2.299999999999999
 20
72.29999999999999
 30
0.0
 40
0.5
 50
180.0
 51
270.0
  0
LINE
  8
ITEM_50
 10
2.299999999999999
 20
71.79999999999999
 30
0.0
 11
7.7
 21
71.79999999999999
 31
0.0
  0
ARC
  8
ITEM_50
 10
7.7
 20
72.29999999999999
 30
0.0
 40
0.5
 50
270.0
 51
0.0
  0
LINE
  8
ITEM_50
 10
8.199999999999999
 20
72.29999999999999
 30
0.0
 11
8.199999999999999
 21
77.7
 31
0.0
  0
ARC
  8
ITEM_50
 10
7.7
 20
77.7
 30
0.0
 40
0.5
 50
0.0
 51
90.0
  0
LINE
  8
ITEM_50
 10
7.7
 20
78.2
 30
0.0
 11
4.0
 21
78.2
 31
0.0
  0
ARC
  8
ITEM_50
 10
76.0
 20
76.0
 30
0.0
 40
2.2
 50
0.0
 51
90.0
  0
LINE
  8
ITEM_50
 10
78.2
 20
76.0
 30
0.0
 11
78.2
 21
72.29999999999999
 31
0.0
  0
ARC
  8
ITEM_50
 10
77.7
 20
72.29999999999999
 30
0.0
 40
0.5
 50
270.0
 51
0.0
  0
LINE
  8
ITEM_50
 10
77.7
 20
71.79999999999999
 30
0.0
 11
72.29999999999999
 21
71.79999999999999
 31
0.0
  0
ARC
  8
ITEM_50
 10
72.29999999999999
 20
72.29999999999999
 30
0.0
 40
0.5
 50
180.0
 51
270.0
  0
LINE
  8
ITEM_50
 10
71.79999999999999
 20
72.29999999999999
 30
0.0
 11
71.79999999999999
 21
77.7
 31
0.0
  0
ARC
  8
ITEM_50
 10
72.29999999999999
 20
77.7
 30
0.0
 40
0.5
 50
90.0
 51
180.0
  0
LINE
  8
ITEM_50
 10
72.29999999999999
 20
78.2
 30
0.0
 11
76.0
 21
78.2
 31
0.0
  0
LINE
  8
ITEM_50
 10
34.29999999999999
 20
2.0
 30
0.0
 11
40.0
 21
2.0
 31
0.0
  0
LINE
  8
ITEM_50
 10
40.0
 20
2.0
 30
0.0
 11
45.7
 21
2.0
 31
0.0
  0
ARC
  8
ITEM_50
 10
45.7
 20
4.5
 30
0.0
 40
2.5
 50
270.0
 51
0.0
  0
LINE
  8
ITEM_50
 10
48.2
 20
4.5
 30
0.0
 11
48.2
 21
8.250253
 31
0.0
  0
ARC
  8
ITEM_50
 10
53.2
 20
8.250253
 30
0.0
 40
5.0
 50
135.0
 51
180.0
  0
LINE
  8
ITEM_50
 10
49.66446599999999
 20
11.78578599999999
 30
0.0
 11
50.78553399999999
 21
12.90685399999999
 31
0.0
  0
ARC
  8
ITEM_50
 10
47.25
 20
16.442388
 30
0.0
 40
5.0
 50
315.0
 51
0.0
  0
LINE
  8
ITEM_50
 10
52.25
 20
16.442388
 30
0.0
 11
52.25
 21
20.0
 31
0.0
  0
LINE
  8
ITEM_50
 10
52.25
 20
20.0
 30
0.0
 11
52.25
 21
23.75862199999999
 31
0.0
  0
ARC
  8
ITEM_50
 10
52.75
 20
23.75862199999999
 30
0.0
 40
0.5
 50
135.0
 51
180.0
  0
LINE
  8
ITEM_50
 10
52.396447
 20
24.112175
 30
0.0
 11
55.88782499999999
 21
27.603553
 31
0.0
  0
ARC
  8
ITEM_50
 10
56.24137799999999
 20
27.25
 30
0.0
 40
0.5
 50
90.0
 51
135.0
  0
LINE
  8
ITEM_50
 10
56.24137799999999
 20
27.75
 30
0.0
 11
60.0
 21
27.75
 31
0.0
  0
LINE
  8
ITEM_50
 10
60.0
 20
27.75
 30
0.0
 11
63.55761199999999
 21
27.75
 31
0.0
  0
ARC
  8
ITEM_50
 10
63.55761199999999
 20
32.75
 30
0.0
 40
5.0
 50
270.0
 51
315.0
  0
LINE
  8
ITEM_50
 10
67.093146
 20
29.214466
 30
0.0
 11
68.21421399999999
 21
30.33553399999999
 31
0.0
  0
ARC
  8
ITEM_50
 10
71.74974699999999
 20
26.8
 30
0.0
 40
5.0
 50
90.0
 51
135.0
  0
LINE
  8
ITEM_50
 10
71.74974699999999
 20
31.8
 30
0.0
 11
75.5
 21
31.8
 31
0.0
  0
ARC
  8
ITEM_50
 10
75.5
 20
34.29999999999999
 30
0.0
 40
2.5
 50
270.0
 51
0.0
  0
LINE
  8
ITEM_50
 10
78.0
 20
34.29999999999999
 30
0.0
 11
78.0
 21
40.0
 31
0.0
  0
LINE
  8
ITEM_50
 10
78.0
 20
40.0
 30
0.0
 11
78.0
 21
45.7
 31
0.0
  0
ARC
  8
ITEM_50
 10
75.5
 20
45.7
 30
0.0
 40
2.5
 50
0.0
 51
90.0
  0
LINE
  8
ITEM_50
 10
75.5
 20
48.2
 30
0.0
 11
71.74974699999999
 21
48.2
 31
0.0
  0
ARC
  8
ITEM_50
 10
71.74974699999999
 20
53.2
 30
0.0
 40
5.0
 50
225.0
 51
270.0
  0
LINE
  8
ITEM_50
 10
68.21421399999999
 20
49.66446599999999
 30
0.0
 11
67.093146
 21
50.78553399999999
 31
0.0
  0
ARC
  8
ITEM_50
 10
63.55761199999999
 20
47.25
 30
0.0
 40
5.0
 50
45.0
 51
90.0
  0
LINE
  8
ITEM_50
 10
63.55761199999999
 20
52.25
 30
0.0
 11
60.0
 21
52.25
 31
0.0
  0
LINE
  8
ITEM_50
 10
60.0
 20
52.25
 30
0.0
 11
56.24137799999999
 21
52.25
 31
0.0
  0
ARC
  8
ITEM_50
 10
56.24137799999999
 20
52.75
 30
0.0
 40
0.5
 50
225.0
 51
270.0
  0
LINE
  8
ITEM_50
 10
55.88782499999999
 20
52.396447
 30
0.0
 11
52.396447
 21
55.88782499999999
 31
0.0
  0
ARC
  8
ITEM_50
 10
52.75
 20
56.24137799999999
 30
0.0
 40
0.5
 50
180.0
 51
225.0
  0
LINE
  8
ITEM_50
 10
52.25
 20
56.24137799999999
 30
0.0
 11
52.25
 21
60.0
 31
0.0
  0
LINE
  8
ITEM_50
 10
52.25
 20
60.0
 30
0.0
 11
52.25
 21
63.55761199999999
 31
0.0
  0
ARC
  8
ITEM_50
 10
47.25
 20
63.55761199999999
 30
0.0
 40
5.0
 50
0.0
 51
45.0
  0
LINE
  8
ITEM_50
 10
50.78553399999999
 20
67.093146
 30
0.0
 11
49.66446599999999
 21
68.21421399999999
 31
0.0
  0
ARC
  8
ITEM_50
 10
53.2
 20
71.74974699999999
 30
0.0
 40
5.0
 50
180.0
 51
225.0
  0
LINE
  8
ITEM_50
 10
48.2
 20
71.74974699999999
 30
0.0
 11
48.2
 21
75.5
 31
0.0
  0
ARC
  8
ITEM_50
 10
45.7
 20
75.5
 30
0.0
 40
2.5
 50
0.0
 51
90.0
  0
LINE
  8
ITEM_50
 10
45.7
 20
78.0
 30
0.0
 11
40.0
 21
78.0
 31
0.0
  0
LINE
  8
ITEM_50
 10
40.0
 20
78.0
 30
0.0
 11
34.29999999999999
 21
78.0
 31
0.0
  0
ARC
  8
ITEM_50
 10
34.29999999999999
 20
75.5
 30
0.0
 40
2.5
 50
90.0
 51
180.0
  0
LINE
  8
ITEM_50
 10
31.8
 20
75.5
 30
0.0
 11
31.8
 21
71.74974699999999
 31
0.0
  0
ARC
  8
ITEM_50
 10
26.8
 20
71.74974699999999
 30
0.0
 40
5.0
 50
315.0
 51
0.0
  0
LINE
  8
ITEM_50
 10
30.33553399999999
 20
68.21421399999999
 30
0.0
 11
29.214466
 21
67.093146
 31
0.0
  0
ARC
  8
ITEM_50
 10
32.75
 20
63.55761199999999
 30
0.0
 40
5.0
 50
135.0
 51
180.0
  0
LINE
  8
ITEM_50
 10
27.75
 20
63.55761199999999
 30
0.0
 11
27.75
 21
60.0
 31
0.0
  0
LINE
  8
ITEM_50
 10
27.75
 20
60.0
 30
0.0
 11
27.75
 21
56.24137799999999
 31
0.0
  0
ARC
  8
ITEM_50
 10
27.25
 20
56.24137799999999
 30
0.0
 40
0.5
 50
315.0
 51
0.0
  0
LINE
  8
ITEM_50
 10
27.603553
 20
55.88782499999999
 30
0.0
 11
24.112175
 21
52.396447
 31
0.0
  0
ARC
  8
ITEM_50
 10
23.75862199999999
 20
52.75
 30
0.0
 40
0.5
 50
270.0
 51
315.0
  0
LINE
  8
ITEM_50
 10
23.75862199999999
 20
52.25
 30
0.0
 11
16.442388
 21
52.25
 31
0.0
  0
ARC
  8
ITEM_50
 10
16.442388
 20
47.25
 30
0.0
 40
5.0
 50
90.0
 51
135.0
  0
LINE
  8
ITEM_50
 10
12.90685399999999
 20
50.78553399999999
 30
0.0
 11
11.78578599999999
 21
49.66446599999999
 31
0.0
  0
ARC
  8
ITEM_50
 10
8.250253
 20
53.2
 30
0.0
 40
5.0
 50
270.0
 51
315.0
  0
LINE
  8
ITEM_50
 10
8.250253
 20
48.2
 30
0.0
 11
4.5
 21
48.2
 31
0.0
  0
ARC
  8
ITEM_50
 10
4.5
 20
45.7
 30
0.0
 40
2.5
 50
90.0
 51
180.0
  0
LINE
  8
ITEM_50
 10
2.0
 20
45.7
 30
0.0
 11
2.0
 21
40.0
 31
0.0
  0
LINE
  8
ITEM_50
 10
2.0
 20
40.0
 30
0.0
 11
2.0
 21
34.29999999999999
 31
0.0
  0
ARC
  8
ITEM_50
 10
4.5
 20
34.29999999999999
 30
0.0
 40
2.5
 50
180.0
 51
270.0
  0
LINE
  8
ITEM_50
 10
4.5
 20
31.8
 30
0.0
 11
8.250253
 21
31.8
 31
0.0
  0
ARC
  8
ITEM_50
 10
8.250253
 20
26.8
 30
0.0
 40
5.0
 50
45.0
 51
90.0
  0
LINE
  8
ITEM_50
 10
11.78578599999999
 20
30.33553399999999
 30
0.0
 11
12.90685399999999
 21
29.214466
 31
0.0
  0
ARC
  8
ITEM_50
 10
16.442388
 20
32.75
 30
0.0
 40
5.0
 50
225.0
 51
270.0
  0
LINE
  8
ITEM_50
 10
16.442388
 20
27.75
 30
0.0
 11
20.0
 21
27.75
 31
0.0
  0
LINE
  8
ITEM_50
 10
20.0
 20
27.75
 30
0.0
 11
23.75862199999999
 21
27.75
 31
0.0
  0
ARC
  8
ITEM_50
 10
23.75862199999999
 20
27.25
 30
0.0
 40
0.5
 50
45.0
 51
90.0
  0
LINE
  8
ITEM_50
 10
24.112175
 20
27.603553
 30
0.0
 11
27.603553
 21
24.112175
 31
0.0
  0
ARC
  8
ITEM_50
 10
27.25
 20
23.75862199999999
 30
0.0
 40
0.5
 50
0.0
 51
45.0
  0
LINE
  8
ITEM_50
 10
27.75
 20
23.75862199999999
 30
0.0
 11
27.75
 21
20.0
 31
0.0
  0
LINE
  8
ITEM_50
 10
27.75
 20
20.0
 30
0.0
 11
27.75
 21
16.442388
 31
0.0
  0
ARC
  8
ITEM_50
 10
32.75
 20
16.442388
 30
0.0
 40
5.0
 50
180.0
 51
225.0
  0
LINE
  8
ITEM_50
 10
29.214466
 20
12.90685399999999
 30
0.0
 11
30.33553399999999
 21
11.78578599999999
 31
0.0
  0
ARC
  8
ITEM_50
 10
26.8
 20
8.250253
 30
0.0
 40
5.0
 50
0.0
 51
45.0
  0
LINE
  8
ITEM_50
 10
31.8
 20
8.250253
 30
0.0
 11
31.8
 21
4.5
 31
0.0
  0
ARC
  8
ITEM_50
 10
34.29999999999999
 20
4.5
 30
0.0
 40
2.5
 50
180.0
 51
270.0
  0
LINE
  8
ITEM_50
 10
91.0
 20
80.0
 30
0.0
 11
91.0
 21
0.0
 31
0.0
  0
ENDSEC
  0
EOF
